Tableaux d'accords
<- Revenir à la liste des tablature

Morcheeba - Over and Over

 
artist: Morcheeba
titre: Over and over
album: Big calm
par billy (billyx7@yahoo.fr)


pour jouer ce morceau il faut accorder les cordes 1/2 tons plus bas
je ne suis pas sur a 100% du refrain a cause des violons qui masque un peu la guitare
bonne gratte sur ce tres joli morceau...



eb|------------0---------------0---------------0---------------0------|
Bb|--------1-----1---------1-----1---------1-----1---------1-----1----|
Gb|------2---2-----2-----2---2-----2-----2---2-----2-----2---2-----2--|
Db|--0h2-------------0h2-------------0h2-------------0h2--------------|
Ab|-------------------------------------------------------------------|
Eb|-------------------------------------------------------------------|

Waking to these sounds again
I wonder how I'll sleep
Passing out is taking off into the stubborn deep

eb|------------0---------------0---------------0---------------0------|
Bb|--------1-----1---------1-----1---------0-----0---------0-----0----|
Gb|------2---2-----2-----0---0-----0-----0---0-----0-----0---0-----0--|
Db|--0h2-------------0h2-------------0h2-------------0h2--------------|
Ab|-------------------------------------------------------------------|
Eb|-------------------------------------------------------------------|

I'd like to meet a human who makes it all seem clear
To work out all these cycles and why I'm standing here
I'm falling

eb|------0-----0-----0-----0-----0-----0-----0-----0--|
Bb|------1-----1-----1-----1-----0-----0-----0-----0--|
Gb|----2-----2-----0-----0-----0-----0-----0-----0----|
Db|--2-----2-----2-----2-----2-----2-----2-----2------|
Ab|---------------------------------------------------|
Eb|---------------------------------------------------|

Over and over and over and over again now
Calling and over and over and over and over again now

eb|------------0---------------0---------------0---------------0------|
Bb|--------1-----1---------1-----1---------1-----1---------1-----1----|
Gb|------2---2-----2-----2---2-----2-----2---2-----2-----2---2-----2--|
Db|--0h2-------------0h2-------------0h2-------------0h2--------------|
Ab|-------------------------------------------------------------------|
Eb|-------------------------------------------------------------------|

Running through my life right now
I don't regret a thing
The things I do just make me laugh and make me wanna drink

eb|------------0---------------0---------------0---------------0------|
Bb|--------1-----1---------1-----1---------0-----0---------0-----0----|
Gb|------2---2-----2-----0---0-----0-----0---0-----0-----0---0-----0--|
Db|--0h2-------------0h2-------------0h2-------------0h2--------------|
Ab|-------------------------------------------------------------------|
Eb|-------------------------------------------------------------------|

I'd like to meet a mad man who makes it all seem sane
To work out all these troubles and what there is to gain
I'm falling

eb|------0-----0-----0-----0-----0-----0-----0-----0--|
Bb|------1-----1-----1-----1-----0-----0-----0-----0--|
Gb|----2-----2-----0-----0-----0-----0-----0-----0----|
Db|--2-----2-----2-----2-----2-----2-----2-----2------|
Ab|---------------------------------------------------|
Eb|---------------------------------------------------|

Over and over and over and over again now
Calling and over and over and over and over again now

eb|------------0---------------0---------------0---------------0------|
Bb|--------1-----1---------1-----1---------1-----1---------1-----1----|
Gb|------2---2-----2-----2---2-----2-----2---2-----2-----2---2-----2--|
Db|--0h2-------------0h2-------------0h2-------------0h2--------------|
Ab|-------------------------------------------------------------------|
Eb|-------------------------------------------------------------------|

Projecting what I want is always hard to know
But when it comes between my sights I'll let the damage show

eb|------------0---------------0---------------0---------------0------|
Bb|--------1-----1---------1-----1---------0-----0---------0-----0----|
Gb|------2---2-----2-----0---0-----0-----0---0-----0-----0---0-----0--|
Db|--0h2-------------0h2-------------0h2-------------0h2--------------|
Ab|-------------------------------------------------------------------|
Eb|-------------------------------------------------------------------|

I'd like to meet a space man, who's got it going on
Sailing through the stars at night 'til our world is gone
I'm falling

eb|------0-----0-----0-----0-----0-----0-----0-----0--|
Bb|------1-----1-----1-----1-----0-----0-----0-----0--|
Gb|----2-----2-----0-----0-----0-----0-----0-----0----|
Db|--2-----2-----2-----2-----2-----2-----2-----2------|
Ab|---------------------------------------------------|
Eb|---------------------------------------------------|

Over and over and over and over again now
Calling and over and over and over and over again now

Over and over and over and over again now
Calling and over and over and over and over again now


Accords identifiés : Accord Bb Accord Gb Accord Db Accord Ab Accord Eb


<- Revenir à la liste des tablature
Pascal Sandrez - 579ms
Sites préférés : abc tabs | partoch | easy-tabs | Deezer | audiofanzine
règles de confidentialité