Tableaux d'accords
<- Revenir à la liste des tablature

R.E.M - Everybody Hurts

docx  
REM - Everybody hurts

http://www.youtube.com/watch?v=ijZRCIrTgQc
http://youtu.be/he8X8Iy7OiU
http://youtu.be/CLLdQX_4DMg

Intro :  D   G   Em   A 

Couplet:                                             à la 4ième fois
   D                       G                     x4         G/F#
e-|------2----|------2----|------3----|------3----|  |-----------|
B-|----3---3--|----3---3--|--------3--|--------3--|  |-----------|
G-|--2-------2|--2-------2|----0-----0|----0-----0|  |----0-----0|
D-|0----------|0----------|--0--------|--0--------|  |--0-----0--|
A-|-----------|-----------|-----------|-----------|  |-----------|
E-|-----------|-----------|3----------|3----------|  |3-----2----|

Refrain:
   Em                      A                     x3
e-|------0----|------0----|------0----|------0----|
B-|--------0--|--------0--|--------2--|-----------|
G-|----0-----0|----0-----0|----2-----2|----2------|
D-|--2--------|--2--------|--2--------|--2--------|
A-|-----------|-----------|0----------|0----------|
E-|0----------|0----------|-----------|--------3-2|


D                     G         D                          G 
  When the day is long and the night, the night is yours alone
D                                G             D        G         G/F# 
  When you're sure you've had enough of this life, hang on
Em                    A   Em              A   Em            A     D
  Don't let yourself go,     everybody cries,    everybody hurts sometimes


G                           D   G                        D 
  Sometimes everything is wrong, now it's time to sing along
                         G             D 
  When your day is night hold on, hold on
                          G 
  If you feel like letting go
D                                G            D              G      G/F# 
  When you think you've had too much of this life, well hang on
Em           A    Em                        A      Em            A  
  Everybody hurts,   take comfort in your friends,    everybody hurts, 

  
F#                  Bm   F#   Bm   F#                 Bm 
  Don't throw your hand, oh  no,     don't throw your hand
C                             G     C                        Am 
  When you feel like you're alone, no, no, no, you are not alone

  
D                      G         D                             G 
  If you're on your own in this life, the days and nights are long
D                              G               D            G       G/F#
  When you think you've had too much, of this life, to hang on


Em           A   Em                       A  
  Everybody hurts, sometimes, everybody cries,  
Em           A          D 
  everybody hurts, sometimes  
G                D        G         D        G        D
  But everybody hurts sometimes so hold on, hold on, hold on,  
   G        D        G        D        G  
  Hold on, hold on, hold on, hold on, hold on,  
             D   G   D   G               D   G   D   G   D   G  
  Everybody hurts          You are not alone 

Accords identifiés : Accord D Accord G Accord Em Accord A Accord F# Accord B Accord E Accord Bm Accord C Accord Am
Videos identifiés :


<- Revenir à la liste des tablature
Pascal Sandrez - 175ms
Sites préférés : abc tabs | partoch | easy-tabs | Deezer | audiofanzine
règles de confidentialité