Tableaux d'accords
<- Revenir à la liste des tablature

Alanis Morissette - Ironic

 
Alanis Morissette - Ironic

Capo 4 !
Les arpèges et les accords en tienent compte.

INTRO (clean guitar):

G :      x32003                                          
G1:      x54005 
G2	 x54007 


INTRO (clean guitar):
                          |--3-----2--------------------|
                          |--------------3--------------|
                          |---------------------0-----2-|
G        G1       G2      |-----0-----0-----------------|
                          |--3-----3-----3--------------|
                          |-----------------------------|
"   Hey-ey, hey,..." etc etc


VERSE 1 : 
   + . + . + . + . | + . + . + . + . | + . + . + . + . | + . + . + . + . |
 |-----------------|-----------------|-----------------|-----------------|
 |-------0---------|-3---------------|-3--3--3---------|----3------------|
 |-2-----2---------|-2-----0---------|-2---2-2---------|-2-----0---------|
 |-0---------------|-------0-------0-|-----------------|-0-----0---------|
 |-----------------|-----------------|-----------------|-----------------|
 |-2-----3---------|-2-----0---------|-2-----3---------|-2-----0---------|

An old   man        turned 98. He won the lottery, and   died the next day

       + . + . + . + . | + . + . + . + . | + . + . + . + . | + . + . + . + . |
     |-----------------|-----------------|-----------------|-----------------|
     |-3-----0---------|-3---------------|-----------------|----3------------|
     |-2--2--2---------|-2-----0---------|-2--2--2---------|-2-----0---------|
     |-----------------|-0-----0---------|-0-----0---------|-0-----0---------|
     |-----------------|-----------------|-----------------|-----------------|
     |-2-----3---------|-2-----0---------|-2-----3---------|-2-----0---------|

It's a black fly in your Chardonnay. It's a death row pardon 2 minutes too 
late.
         + . + . + . + . | + . + . + . + . |
        |-----------------|-----------------|
        |----3--------3---|---3-------------|
        |-2-----2---2---2-|-2-----0---------|
        |-0-----0---------|-0-----0---------|
        |-----------------|-----------------|
        |-2-----3---------|-2-----0---------|

Isn't it ironic...don't you think?


CHORUS (Overdriven guitar):

           D   G          D      Em
Its like rain    on your wedding day
           D G              D      Em
It's a free ride when you've already paid
               D  G          D          Em
It's the good advice that you just didn't take
    F              C            D
And who would have thought...it figures

VERSE 2 (clean)

  + . + . + . + .  | + . + . + . +. | + . + . + . + .  | + . + . + .  +  .   |
|------------------|----------------|------------------|---------------------|
|----3--0----0-----|----0-----------|----3--0----------|----0--------0-------|
|-2-----2---2--2-0-|-2-----0--------|-2-----2----------|-2-----0---2-----2-0-|
|-0----------------|-0-----0--------|-0----------------|-0-----0-------------|
|------------------|----------------|------------------|---------------------|
|-2-----3----------|-2-----0--------|-2-----3----------|-2-----0-------------|

Mr. Play It Safe was afraid to fly.   suitcase and       kids goodbye. He 
                     He packed his    kissed his           waited his

  + . + . + . + .|  + . + . +  .  +  .   | + . + . + .  + .  |  + . + . + .+. 
|----------------|---------------0-------|-------------------|----------------
|----3--0--------|-----0-------3-----3-0-|----3--0-----------|-----0----------
|-2-----2--------|--2-----0--------------|-2-----2-----------|--2-----0-------
|-0--------------|--0-----0--------------|-0-----------------|--0-----0-------
|----------------|-----------------------|-------------------|----------------
|-2-----3--------|--2-----0--------------|-2-----3-----------|--2-----0-------

 whole damn life just to take that..      plane crashed down   isn't this
                   ..flight. And as the   he thought "well       nice..."

              +  .  +  .  +  .  +  .  | + . + . + . + . |
             |-------------------5-3h5-|-----------------|
             |-----3----0-----0h3------|----0------------|
             |-2--------2--------------|-2-----0---------|
             |-0-----------------------|-0---------------|
             |-------------------------|-------0---------|
             |-2--------3--------------|-2-----0---------|

And isn't it ironic.... don't you think?
 

CHORUS (distortion)

           D G          D      Em
Its like rain    on your wedding day
           D G              D      Em
It's a free ride when you've already paid
               D  G          D          Em
It's the good advice that you just didn't take
    F              C            D
And who would have thought...it figures


BRIDGE (clean)
     G
Well life has a funny way
               G1                       G2     G1
of sneaking up on you when you think everything is okay and
G                      G1      G2  G1
everything is going right
    G
And life has a funny way
               G1                  G2  G3
of helping you out when you think everything's gone wrong and
G        
everything blows up in your face 

|--3--2--------|
|--------3-----|
|-----------0--|
|--------------|
|--------------|
|--------------|


VERSE 3

A clean guitar strums the chords in the normal progression, and throughout the
verse, keybords play something like this:

|-------------|--------------|
|---3--0~~~~--|---0----------|
|-2-----------|-2----0~~~~---|
|-------------|--------------|
|-------------|--------------|
|-------------|--------------|


A traffic jam, when you're already late
A no-smoking sign on your cigarette break
It's like ten thousand spoons when all you need is a knife
It's meeting the man of my dreams and then meeting his beautiful wife.
And isn't it..

  + . + . + . + . | + . + . + . + . | + . + . + . + .  | + . + . + . + . |
|-----------------|-----------------|-----------3-2p0--|-----------------|
|----3-----3------|----3-----3------|----3--3--3-----3-|----3------------|
|-2-----2---------|-2-----0---------|-2-----2----------|-2-----0---------|
|-0-----0---------|-0-----2---------|-0----------------|-0-----0---------|
|-----------------|-----------------|------------------|-----------------|
|-2-----3---------|-2-----0---------|-2-----3----------|-2-----0---------|
 ironic....don't you think    a little too ironic..and yeah I really do think


CHORUS (distortion)

           D G          D      Em
Its like rain    on your wedding day
           D G              D      Em
It's a free ride when you've already paid
               D  G          D          Em
It's the good advice that you just didn't take
    F              C            D
And who would have thought...it figures


OUTRO (clean)

G                      G1      G2  G1
G                             G1         G2          G1
Life has a funny way of sneaking up on you
G                      G1      G2           G1
Life has a funny, funny way     of helping you out
G                     G
Helping you out
Accords identifiés : Accord G Accord D Accord Em Accord F Accord C Accord A


<- Revenir à la liste des tablature
Pascal Sandrez - 110ms
Sites préférés : abc tabs | partoch | easy-tabs | Deezer | audiofanzine
règles de confidentialité