Tableaux d'accords
<- Revenir à la liste des tablature

Green Day -Wake me up when september ends

 
Green Day 
Wake me up when september ends

Extrait de l'album "American Idiot"

Fourni par Awror



INTRO:

e|----------------|----------------|----------------|----------------|
B|----3-----3-----|----3-----3-----|----3-----3-----|----3-----3-----|
G|--0-----0-------|--0-----0-------|--0-----0-------|--0-----0-------|
D|5-----5---------|5-----5---------|5-----5---------|5-----5---------|
A|----------------|----------------|----------------|----------------|
E|----------------|----------------|----------------|----------------|



COUPLET 1:

  G                G                Em               D
e|----------------|----------------|----------------|----------------|
B|----3-----3-----|----3-----3-----|----3-----3-----|----3-----3-----|
G|--0-----0-------|--0-----0-------|--0-----0-------|--0-----0-------|
D|5-----5---------|4-----4---------|2-----2---------|0-----0---------|
A|----------------|----------------|----------------|----------------|
E|----------------|----------------|----------------|----------------|
  Summer has come and passed ...

  C                Cm               G                G
e|----0-----0-----|----------------|----------------|----------------|
B|----1-1---1---1-|----4-----4-----|----3-----3-----|----3-----3-----|
G|--0-------0-----|--5---5---5---0-|----0-0---0---0-|----0-0---0---0-|
D|----------------|--------5-----0-|--0-------0-----|--0-------0-----|
A|3-------3-------|3---------------|----------------|----------------|
E|----------------|----------------|3-------3-------|3-------3-------|
  Wake me up ...

  G                G                Em               D
e|----------------|----------------|----------------|----------------|
B|----3-----3-----|----3-----3-----|----3-----3-----|----3-----3-----|
G|--0-----0-------|--0-----0-------|--0-----0-------|--0-----0-------|
D|5-----5---------|4-----4---------|2-----2---------|0-----0---------|
A|----------------|----------------|----------------|----------------|
E|----------------|----------------|----------------|----------------|
  Like my father's come to pass ...

  C                Cm               G                G      G/Gb
e|----0-----0-----|----------------|----------------|----3-----------|
B|----1-1---1---1-|----4-----4-----|----3-----3-----|----3-------3-0-|
G|--0-------0-----|--5---5---5---0-|----0-0---0---0-|----0-0-----0---|
D|----------------|--------5-----0-|--0-------0-----|--0-------------|
A|3-------3-------|3---------------|----------------|----------0-----|
E|----------------|----------------|3-------3-------|3-------2-------|
  Wake me up ...



REFRAIN:

  Em               Bm               C                G       G/Gb 
e|----------------|----------------|----0-----0-----|----3-----------|
B|----0-----0-----|----3-----3-----|----1-1---1-----|----3-------3-0-|
G|----0-0---0-----|----4-----4-----|--0-------0---0-|----0-0-----0---|
D|--2-------2---0-|--4---4-------4-|--------------0-|--0-------------|
A|----------------|2-------2-------|3-------3-------|----------0-----|
E|0-------0-------|----------------|----------------|3-------2-------|
  Here comes the rain again ...
                 
  Em               Bm               C                D 
e|----------------|----------------|----0-----0-----|----2-----2-----|
B|----0-----0-----|----3-----3-----|----1-1---1-----|----3-3---3-----|
G|----0-0---0-----|----4-----4-----|--0-------0---0-|--2---2---2---0-|
D|--2-------2---0-|--4---4-------4-|----------------|0-------0-------|
A|----------------|2-------2-------|3-------3-------|----------------|
E|0-------0-------|----------------|----------------|----------------|
  Drenched in my pain again ...



COUPLET 2:

  G                G                Em               D
e|----------------|----------------|----------------|----------------|
B|----3-----3-----|----3-----3-----|----3-----3-----|----3-----3-----|
G|--0-----0-------|--0-----0-------|--0-----0-------|--0-----0-------|
D|5-----5---------|4-----4---------|2-----2---------|0-----0---------|
A|----------------|----------------|----------------|----------------|
E|----------------|----------------|----------------|----------------|
  As my memory rests ...

  C                Cm               G                G
e|----0-----0-----|----------------|----------------|----------------|
B|----1-1---1---1-|----4-----4-----|----3-----3-----|----3-----3-----|
G|--0-------0-----|--5---5---5---0-|----0-0---0---0-|----0-0---0---0-|
D|----------------|--------5-----0-|--0-------0-----|--0-------0-----|
A|3-------3-------|3---------------|----------------|----------------|
E|----------------|----------------|3-------3-------|3-------3-------|
  Wake me up ...



PONT: Rejouer l'intro



COUPLET 3:

  G                G                Em               D
e|----------------|----------------|----------------|----------------|
B|----3-----3-----|----3-----3-----|----3-----3-----|----3-----3-----|
G|--0-----0-------|--0-----0-------|--0-----0-------|--0-----0-------|
D|5-----5---------|4-----4---------|2-----2---------|0-----0---------|
A|----------------|----------------|----------------|----------------|
E|----------------|----------------|----------------|----------------|
  Summer has come and passed ...

  C                Cm               G                G      G/Gb
e|----0-----0-----|----------------|----------------|----3-----------|
B|----1-1---1---1-|----4-----4-----|----3-----3-----|----3-------3-0-|
G|--0-------0-----|--5---5---5---0-|----0-0---0---0-|----0-0-----0---|
D|----------------|--------5-----0-|--0-------0-----|--0-------------|
A|3-------3-------|3---------------|----------------|----------0-----|
E|----------------|----------------|3-------3-------|3-------2-------|
  Wake me up ...

  G                G                Em               D
e|----------------|----------------|----------------|----------------|
B|----3-----3-----|----3-----3-----|----3-----3-----|----3-----3-----|
G|--0-----0-------|--0-----0-------|--0-----0-------|--0-----0-------|
D|5-----5---------|4-----4---------|2-----2---------|0-----0---------|
A|----------------|----------------|----------------|----------------|
E|----------------|----------------|----------------|----------------|
  Ring out the bells again ...

  C                Cm               G                G      G/Gb
e|----0-----0-----|----------------|----------------|----3-----------|
B|----1-1---1---1-|----4-----4-----|----3-----3-----|----3-------3-0-|
G|--0-------0-----|--5---5---5---0-|----0-0---0---0-|----0-0-----0---|
D|----------------|--------5-----0-|--0-------0-----|--0-------------|
A|3-------3-------|3---------------|----------------|----------0-----|
E|----------------|----------------|3-------3-------|3-------2-------|
  Wake me up ...



REFRAIN



COUPLET 4:

  G                G                Em               D
e|----------------|----------------|----------------|----------------|
B|----3-----3-----|----3-----3-----|----3-----3-----|----3-----3-----|
G|--0-----0-------|--0-----0-------|--0-----0-------|--0-----0-------|
D|5-----5---------|4-----4---------|2-----2---------|0-----0---------|
A|----------------|----------------|----------------|----------------|
E|----------------|----------------|----------------|----------------|
  As my memory rests ...

  C                Cm               G                G      G/Gb
e|----0-----0-----|----------------|----------------|----3-----------|
B|----1-1---1---1-|----4-----4-----|----3-----3-----|----3-------3-0-|
G|--0-------0-----|--5---5---5---0-|----0-0---0---0-|----0-0-----0---|
D|----------------|--------5-----0-|--0-------0-----|--0-------------|
A|3-------3-------|3---------------|----------------|----------0-----|
E|----------------|----------------|3-------3-------|3-------2-------|
  Wake me up ...



SOLO:

e|----------------|----------------|----------------|----------------|
B|----12----12--12|----12----12--12|----13----13--13|1515151515151515|
G|1212--1212--12--|1111--1111--11--|1212--1212--12--|1212121211111111|
D|----------------|----------------|----------------|----------------|
A|----------------|----------------|----------------|----------------|
E|----------------|----------------|----------------|----------------|

e|----------------|----------------|----------------|----------------|
B|----12----12--12|----12----12--12|----13----13--13|1515151515151515|
G|1212--1212--12--|1111--1111--11--|1212--1212--12--|1212121212121212|
D|----------------|----------------|----------------|----------------|
A|----------------|----------------|----------------|----------------|
E|----------------|----------------|----------------|----------------|

e|----------------|----------------|----------------|
B|1515151515151515|1515151515151515|1515151515151515|
G|1111111111111111|1212121212121212|1111111111111111| 
D|----------------|----------------|----------------| 
A|----------------|----------------|----------------|
E|----------------|----------------|----------------|



RYTHME JOUÉ PENDANT LE SOLO:

  E5               Bm               C5               G5      G5/Gb 
e|----------------|----------------|----------------|----------------|
B|----------------|----3-----------|----------------|----------------|
G|----------------|4-4-4-4-4-4-4-0-|5-5-5-5-5-5-5-0-|----------------|
D|2-2-2-2-2-2-2-2-|4-4-4-4-4-4-4-0-|5-5-5-5-5-5-5-0-|5-5-5-5-5-5-5-5-|
A|2-2-2-2-2-2-2-2-|2-2-2-2-2-2-2-0-|3-3-3-3-3-3-3-0-|5-5-5-5-5-5-5-5-|
E|0-0-0-0-0-0-0-0-|----------------|----------------|3-3-3-3-2-2-2-2-|

  E5               Bm               C5               D5            
e|----------------|----------------|----------------|----------------|
B|----------------|----3-----------|----------------|3-3-3-3-3-3-3-3-|
G|----------------|4-4-4-4-4-4-4-0-|5-5-5-5-5-5-5-5-|2-2-2-2-2-2-2-2-|
D|2-2-2-2-2-2-2-2-|4-4-4-4-4-4-4-0-|5-5-5-5-5-5-5-5-|0-0-0-0-0-0-0-0-|
A|2-2-2-2-2-2-2-2-|2-2-2-2-2-2-2-0-|3-3-3-3-3-3-3-3-|----------------|
E|0-0-0-0-0-0-0-0-|----------------|----------------|----------------|

  D5                                                  G
e|----------------|----------------|----------------|3---------------|
B|3-3-3-3-3-3-3-3-|3-3-3-3-3-3-3-3-|3-3-3-3-3-3-3-3-|3---------------|
G|2-2-2-2-2-2-2-2-|2-2-2-2-2-2-2-2-|2-2-2-2-2-2-2-2-|0---------------|
D|0-0-0-0-0-0-0-0-|0-0-0-0-0-0-0-0-|0-0-0-0-0-0-0-0-|----------------|
A|----------------|----------------|----------------|----------------|
E|----------------|----------------|----------------|----------------|



REJOUER L'INTRO ET LE PREMIER COUPLET



    C                Cm               G5
e| |----------------|----------------|----------------|----------------|
B| |5-5-5-5-5-5-5-5-|4-4-4-4-4-4-4-4-|----------------|----------------|
G| |5-5-5-5-5-5-5-5-|5-5-5-5-5-5-5-5-|----------------|----------------|
D| |5-5-5-5-5-5-5-5-|5-5-5-5-5-5-5-5-|5-5-5-5-5-5-5-5-|5---------------|
A| |3-3-3-3-3-3-3-3-|3-3-3-3-3-3-3-3-|5-5-5-5-5-5-5-5-|5---------------|
E| |----------------|----------------|3-3-3-3-3-3-3-3-|3---------------|
    Wake me up when September ends (3x)



COUPLET 1:

G          
Summer has come and passed
Em               D
The innocent can never last
C          Cm             G		
Wake me up when September ends 
G
Like my father's come to pass
Em              D
Seven years has gone so fast	
C          Cm             G	
Wake me up when September ends


REFRAIN:

Em             Bm
Here comes the rain again
C                G
Falling from the stars	
Em	       Bm	
Drenched in my pain again
C               D
Becoming who we are


COUPLET 2: 

As my memory rests
But never forgets what I lost		
Wake me up when September ends


PONT


COUPLET 3:

Summer has come and passed
The innocent can never last		
Wake me up when September ends

Ring out the bells again
Like we did when spring began		
Wake me up when September ends


REFRAIN


COUPLET 4:

As my memory rests
But never forgets what I lost		
Wake me up when September ends


SOLO:  E5  Bm  C5  G5  G5/Gb  E5  Bm  C5  D5  G


COUPLET 5: 

Summer has come and passed
The innocent can never last		
Wake me up when September ends

Like my father's come to pass
Twenty years has gone so fast		
Wake me up when September ends
Wake me up when September ends
Wake me up when September ends
Accords identifiés : Accord B Accord G Accord D Accord A Accord E Accord Em Accord C Accord Cm Accord Gb Accord Bm Accord E5 Accord C5 Accord G5 Accord D5


<- Revenir à la liste des tablature
Pascal Sandrez - 298ms
Sites préférés : abc tabs | partoch | easy-tabs | Deezer | audiofanzine
règles de confidentialité