Tableaux d'accords
<- Revenir à la liste des tablature

Green Day - Good Riddance (Time Of Your Life)

doc gp3  
Green Day - Good Riddance (Time Of Your Life)

G     320033
C2    x32033
Dsus4 xx0233
Em    022000

L'intro, le premier couplet et le premier refrain sont en arpèges puis en gratté pour revenir en arpèges sur le dernier refrain et l'outro.


Intro
|-------------------------------|
|-------------------------------|
|--------0---------------0------|
|-----------0---------------0---|
|-------------------------------|
|--3--3------------3--3---------|
   G              G


Couplet
|--------------------------------|--------------------------------|
|-------3---------------3--------|-------3---------------3--------|
|-----------0---0-----------0---0|-----------0---0-----------2---2|
|-------------0---------------0--|-------------2---0--0--------0--|
|--------------------------------|-3--3---------------------------|
|-3--3------------3--3-----------|--------------------------------|
  G               G                C2               Dsus4
         Another turning point, a fork stuck in the road
  G                      G                C2                Dsus4
         Time grabs you by the wrist, directs you where to go
|--------------------------------|--------------------------------|
|-------0---------------3--------|-------3---------------3--------|
|-----------0---0-----------2---2|-----------0---0-----------0---0|
|-------------2---0--0--------0--|-------------2---------------0--|
|-2--2---------------------------|-3--3---------------------------|
|--------------------------------|-----------------3--3-----------|
  Em              Dsus4            C2                G
         So make the best of this test, and don't ask why
  Em                 Dsus4           C2                G
         It's not a question, but a lesson learned in time


Refrain
|--------------------------------|--------------------------------|
|-------0---------------3--------|-------0---------------3--------|
|-----------0---0-----------0---0|-----------0---0-----------0---0|
|-------------2---------------0--|-------------2---------------0--|
|-2--2---------------------------|-2--2---------------------------|
|-----------------3--3-----------|-----------------3--3-----------|
     Em            G              Em               G
It's something unpredictable, but in the end it's right.
|--------------------------------|
|-------0---------------3--------|
|-----------0---0-----------2---2|
|-------------2---0--0--------0--|
|-2--2---------------------------|
|--------------------------------|
  Em              Dsus4
I hope you had the time of your life.


Bridge
G     G     C2    Dsus4 (x2)


Couplet
G               G                C2                Dsus4
   So take the photographs, and still frames in your mind
G               G                C2                Dsus4
   Hang it on a shelf in good health and good time
Em            Dsus4          C2               G
   Tattoos of memories and dead skin on trial
Em            Dsus4          C2               G
   For what it's worth it was worth all the while


Refrain
     Em            G              Em               G
It's something unpredictable, but in the end it's right.
  Em              Dsus4
I hope you had the time of your life.


Bridge
G     G     C2    Dsus4 (x2)


Instrumental
G     G     C2    Dsus4 (x2)
Em    Dsus4 C2    G     (x2)


Refrain
     Em            G              Em               G
It's something unpredictable, but in the end it's right.
  Em              Dsus4
I hope you had the time of your life.


Bridge
G     G     C2    Dsus4 (x2)


Refrain (en arpèges)
     Em            G              Em               G
It's something unpredictable, but in the end it's right.
  Em              Dsus4
I hope you had the time of your life.


Outro (en arpèges)
G     G     C2    Dsus4 (x2)

|------3------------------|
|-----3-------------------|
|----0--------------------|
|---0---------------------|
|--2----------------------|
|-3-----------------------|
  G

Accords identifiés : Accord G Accord Dsus4 Accord Em


<- Revenir à la liste des tablature
Pascal Sandrez - 295ms
Sites préférés : abc tabs | partoch | easy-tabs | Deezer | audiofanzine
règles de confidentialité