Tableaux d'accords
<- Revenir à la liste des tablature

James Blunt - Same Mistake

 
James Blunt - Same Mistake  


G\B       -X-2-0-0-3-3-
Cadd9     -X-3-2-0-3-3-
Dsus4\F#  -2-0-0-2-3-3-
G         -3-2-0-0-3-3-
Dsus4     -X-X-0-2-3-3-
D         -X-X-0-2-3-2-
Em7       -0-2-2-0-3-0-
C         -X-3-2-0-1-0-
Em        -0-2-2-0-0-0-
Bm        -X-2-4-4-3-2-
D\F#      -2-0-0-2-3-2-
Cmaj7     -X-3-2-0-0-0-

*** Capo 3 ***


Intro:
     G\B             Cadd9             Dsus4\F#        G                
 E||--------3--------------3---------|--------3---------------3---------|
B||------3---3-----------3---3-------|------3---3-----------3---3-------|
G||----0-------0---0---0-------0---0-|----0-------0---0---0-------0---0-|
D||----------------------------------|----------------------------------|
A||--2-----------2---3-----------3---|----------------------------------|
E||----------------------------------|--2-----------2---3-----------3---|


  G\B               Cadd9            Dsus4               D         
--------3---------------3---------|--------------3p2--------------||
------3---3-----------3---3-------|----------3-------3------------||
----0-------0---0---0-------0---0-|--------2---0-------2----------||
----------------------------------|--0-------------------0--------||
--2-----------2---3-----------3---|-------------------------------||
----------------------------------|-------------------------------||


Verse 1, 2 & 3:
    G                                  G                              
|---------3---------------3---------|--------3---------------3-------|
|o------3---3-----------3---3-------|------3---3-----------3---------|
|-----0-------0---0---0-------0---0-|----0-------0---0---0-----------|
|o------------------0-----------0---|------------------0-------------|
|-----------------------------------|--------------------------------|
|---3-----------3-------------------|--3-----------3-----------3--2--|
1. So while I'm turning in my sheets and once again I cannot sleep 
2. Hello, hello, There is no place I cannot go 
3. And so I sent some men to fight and one came back at dead of night 


  Em7                                Em7                              
--------0---------------0---------|--------0--------------0------0-|
------3---3-----------3---3-------|------3---3----------3------3---|
----0-------0---0---0-------0---0-|----0-------0---0---------------|
------------------2-----------2---|------------------2------0------|
----------------------------------|--------------------------------|
--0-----------0-------------------|--0-----------0-----------------|
1. Walk out the door and up the street, Look at the stars beneath my feet 
2. My mind is muddy but my heart is heavy, does it show?
3. Said he'd seen my enemy, said he looked just like me 


  C                                  C                                
--------0---------------0---------|--------0--------------0----------||
------1---1-----------1---1-------|------1---1----------1-----------o||
----0-------0---0---0-------0---0-|----0-------0---0-------------0---||
----------------------------------|------------------2------0--0----o||
--3-----------3---3-----------3---|--3-----------3-------------------||
----------------------------------|----------------------------------||
1. Remember rights that I did wrong. So here I go...
2. I lose the track that loses me. So here I go...
3. So I set out to cut myself. And here I go...


Pre-chorus:
  G                                  G                 D             
||--------3-------------------------|--------3---------------3-------|
||------3---3-----------0---0---0---|------3---3-----------2---------|
||----0-------0---0---0---0---0---0-|----0-------0---0---0-----------|
||------------------0---------------|------------------0-------------|
||----------------------------------|--------------------------------|
||--3-----------3-------------------|--3-----------3-----------3--2--|


  Em7                                Em7                                
--------0---------------0---------|--------0---------------0-------0-|
------3---3-----------3---3-------|------3---3-----------3-------3---|
----0-------0---0---0-------0---0-|----0-------0---0---0-------0-----|
------------------2-----------2---|------------------2-------0-------|
----------------------------------|----------------------------------|
--0-----------0-------------------|--0-----------0-------------------|


  C                                  C                                    
--------0---------------0---------|--------0--------------0--------||
------1---1-----------1---1-------|------1---1----------1----------||
----0-------0---0---0-------0---0-|----0-------0---0-------------0-||
----------------------------------|------------------2------0--0---||
--3-----------3---3-----------3---|--3-----------3-----------------||
----------------------------------|--------------------------------||


Verse 1:
G 
  So while I'm turning in my sheets and once again I cannot sleep 
Em7                             
  Walk out the door and up the street. Look at the stars beneath my feet 
C
  Remember rights that I did wrong. So here I go...


Verse 2:
Hello, hello, there is no place I cannot go 
My mind is muddy but my heart is heavy does it show?
I lose the track that loses me. So here I go...


Pre-chorus:
G  D   |Em7    |C     
Ahoehoe ahoehoe ahoehoe 


Verse 3:
And so I sent some men to fight and one came back at dead of night 
Said he'd seen my enemy, said he looked just like me 
So I set out to cut myself. And here I go...


Pre-chorus:
G       Em      C      |G   D |
ahoehoe ahoehoe ahoehoe 


Chorus:
C                     G
I'm not calling for a second chance 
    Bm                         Em
I'm screaming at the top of my voice 
C                   Em
Give me reason, but don't give me choice 
           C             D\F#             G
Cause I'll just make the same mistake again (ahoehoe)


Verse 4:
G
And maybe someday we will meet and maybe talk and not just speak 
Em
Don’t buy the promises cause there are no promises I keep 
C
And my reflection troubles me. So here I go 


Prechorus: 
G       Em      C      |G   D  |
ahoehoe ahoehoe ahoehoe 


Chorus:
C                     G
I'm not calling for a second chance 
    Bm                         Em
I'm screaming at the top of my voice 
C                   Em
Give me reason, but don't give me choice 
           C             D\F#             
Cause I'll just make the same mistake 
C                     G
I'm not calling for a second chance 
    Bm                         Em
I'm screaming at the top of my voice 
C                   Em
Give me reason, but don't give me choice 
           Cmaj7         D             G
Cause I'll just make the same mistake again 


Outro:
        Em      C      |G   D  |
ahoehoe ahoehoe ahoehoe 

G                                   Em
Ahoehoe, so while I'm turning in my sheets (ahoehoe)
                        C
And once again I cannot sleep (ahoehoe)
                             G
Walk out the door and up the street (ahoehoe)
                 G\B
Look at the stars (ahoehoe)
C              D             Em
   Look at the stars falling down (ahoehoe)
             C                G---
And I wonder where... did I go wrong?

Accords identifiés : Accord G Accord B Accord Dsus4 Accord F# Accord D Accord Em7 Accord C Accord Em Accord Bm Accord E Accord A


<- Revenir à la liste des tablature
Pascal Sandrez - 119ms
Sites préférés : abc tabs | partoch | easy-tabs | Deezer | audiofanzine
règles de confidentialité