Tableaux d'accords
<- Revenir à la liste des tablature

Kt Tunstall - I want you back

 
Title     : I want you back
Artist    : Kt Tunstall
Capo      : none
Setting   : E-A-D-G-B-E
-------------------------------------------------

E = -0-2-2-1-0-0-
G#mb13 = G Mineur, Mol Dertien = -4-X-6-4-0-0-
A = A = -X-0-2-2-2-0-
C#m7 = C Mineur 7 = -X-4-6-4-5-4-
G#m =  -4-6-6-4-4-4-
B7 =  -X-2-1-2-0-2-
E+ = E = -0-7-6-4-5-0-
C#m7+ = C Mineur 7 = -X-4-6-6-5-0-
Badd11 = -X-2-4-4-0-0-
Aadd9  = -5-7-7-6-0-0-
Aadd9+11  = -5-7-X-8-0-0-

X - Dempen
| - Palm Stop

Maat: 4/4

Kt Tunstall - I want you back


       ||||                           | |  |----|
Intro: E  G#mb13 | A | C#m7 G#m A E | A B7 E B7 E | 2x

  E                      G#mb13
When I had you to myself
   A
I didn’t want you around
  C#m7  G#m    A     E
pretty faces always made you
  A       B7     E   B7 E
Stand out in a crowd
  E                      G#mb13
Then someone picked you from the bunch
 A
glance was all it took
 C#m7     G#m      A        E
Now it’s much too late for me
    A     B7    E   B7 E
To take second look

E+       C#m7+   Badd11    Aadd9 
Oh baby give me one more chance
    Aadd9+11           Aadd9 
To show you that I love you
 C#m7  G#m  A     E     A B7 
Won’t you please send me
 E       B7   E
back in your heart

E+          C#m7+  Badd11   Aadd9 Aadd9+11 Aadd9
Oh darlin’ I was blind to let you go
     C#m7 G#m A  E    A B7      E
But now since I see you in his arms
                                                              _2x_
e|------X-X-X-X-X-X---X-X-X-X-X-X-----X-X-X-X-X-X---X-X-X-X-X-X---|
B|------X-X-X-X-X-X---X-X-X-X-X-X-----X-X-X-X-X-X---X-X-X-X-X-X---|
G|o-----X-X-X-X-X-X---X-X-X-X-X-X-----X-X-X-X-X-X---X-X-X-X-X-X--o|
D|o-----X-X-X-X-X-X---X-X-X-X-X-X-----X-X-X-X-X-X---X-X-X-X-X-X--o|
A|--7-7-7-7-7-7-7-7-7-7-7-7-7-7-7-7-7-7-7-7-7-7-7-7-7-7-7-7-7-7---|
E|--0-0-------------0-------------0-0-------------0---------------|

I want you back
Oo oo Yeah Yeah
I want you back
Oo oo Baby Yeah
I want you back
Yeah Yeah Yeah Yeah
I want you back
Oo oo darlin..

Trying to live without your love
Is one long sleepless night
Let me show you girl
That I know wrong from right
Every street you walk on
I leave tear stains on the ground
Following the girl
I didn’t even want around

Oh baby give me one more chance
To show you that I love you
Won’t you please send me
back in your heart

Oh darlin’ I was blind to let you go
But now since I see you in his arms
                                                              _2x_
e|------X-X-X-X-X-X---X-X-X-X-X-X-----X-X-X-X-X-X---X-X-X-X-X-X---|
B|------X-X-X-X-X-X---X-X-X-X-X-X-----X-X-X-X-X-X---X-X-X-X-X-X---|
G|o-----X-X-X-X-X-X---X-X-X-X-X-X-----X-X-X-X-X-X---X-X-X-X-X-X--o|
D|o-----X-X-X-X-X-X---X-X-X-X-X-X-----X-X-X-X-X-X---X-X-X-X-X-X--o|
A|--7-7-7-7-7-7-7-7-7-7-7-7-7-7-7-7-7-7-7-7-7-7-7-7-7-7-7-7-7-7---|
E|--0-0-------------0-------------0-0-------------0---------------|

I want you back
Oo oo Yeah Yeah
I want you back
Oo oo Baby Yeah
I want you back
Oo Oo na na
I want you back

e|---X-X-X-X-X-X---X-X-X-X-X-X-----X-X-X-X-X-X---X-X-X-X-X-X---|
B|---X-X-X-X-X-X---X-X-X-X-X-X-----X-X-X-X-X-X---X-X-X-X-X-X---|
G|---X-X-X-X-X-X---X-X-X-X-X-X-----X-X-X-X-X-X---X-X-X-X-X-X---|
D|---X-X-X-X-X-X---X-X-X-X-X-X-----X-X-X-X-X-X---X-X-X-X-X-X---|
A|-------------------------------------------------------------|
E|-------------------------------------------------------------|

I want you back
I want you back
I want you back
I want you back
                                                              _3x_
e|------X-X-X-X-X-X---X-X-X-X-X-X-----X-X-X-X-X-X---X-X-X-X-X-X---|
B|------X-X-X-X-X-X---X-X-X-X-X-X-----X-X-X-X-X-X---X-X-X-X-X-X---|
G|o-----X-X-X-X-X-X---X-X-X-X-X-X-----X-X-X-X-X-X---X-X-X-X-X-X--o|
D|o-----X-X-X-X-X-X---X-X-X-X-X-X-----X-X-X-X-X-X---X-X-X-X-X-X--o|
A|--7-7-7-7-7-7-7-7-7-7-7-7-7-7-7-7-7-7-7-7-7-7-7-7-7-7-7-7-7-7---|
E|----------------------------------------------------------------|

I want you back
I want you back
I want you back
I want you back

I want you back
I want you back
I want you back
I want you back

I want you back
I want you back
I want you back
I want you back

E+          C#m7+  Badd11   Aadd9 Aadd9+11 Aadd9
Oh darlin’ I was blind to let you go
C#m7  G#m  A     E     A B7 
Won’t you please send me
 E       B7   E
back in your heart

E+       C#m7+   Badd11    Aadd9 
Oh baby give me one more chance
    Aadd9+11             Aadd9  
To show you that I love you
     C#m7 G#m A  E    A B7      E
But now since I see you in his arms

E
I want you back
E
I want you back
E               E|
I want you back

I want you back
Accords identifiés : Accord E Accord A Accord D Accord G Accord B Accord C#m7 Accord C Accord G#m Accord B7


<- Revenir à la liste des tablature
Pascal Sandrez - 232ms
Sites préférés : abc tabs | partoch | easy-tabs | Deezer | audiofanzine
règles de confidentialité