Tableaux d'accords
<- Revenir à la liste des tablature

Louise Attaque - Sans filet

 
Sans filet 
 
 
Séquence répétée en boucle:  
e-------------------------------------------------------  
B------------------------------------------------------  
G------------------------------------------------------  
D----------------0-------------------------------------  
A-------------2------2---------------2--3--2----------  
E-----0--3----------------3--0--3--------------3--0---  
puis  
E----3(s)5-5--0--3--0--3(s)5-5--0--5(s)7--7--7--0---------------------------  
Em Dsus2 Em Dsus2  
J'ai sans doute voulu dire qu'on pouvait se diviser,  
Em Dsus2 Em Dsus2  
S'effacer en moitié chercher partout  
Em Dsus2 Em Dsus2  
Grater les fonds les à-côtés, laisser l'entier s'effriter  
Em Dsus2 Em Dsus2(...)  
Mais regarde-les on pourrait les imiter  
E----3(s)5-5--0--3--0--3(s)5-5--0--5(s)7--7--7--0---------------------------  
J'ai sans doute foulu dire qu'on pouvait réessayer  
Partir sur des bases tronquées voilerait le peu qu'il nous reste  
Mais tu vois du genre on fait style  
Regarde-les on pourrait les imiter  
E----3(s)5-5--0--3--0--3(s)5-5--0--5(s)7--7--7--0---------------------------  
J'ai sans doute voulu dire qu'on pouvait s'illimiter  
Malade comme l'hiver c'est dur de devoir passer  
En net de volonté métissée en avril  
Regarde-les on pourrait les imiter  
E----3(s)5-5--0--3--0--3(s)5-5--0--5(s)7--7--7--0---------------------------  
J'ai sans dout voulu dire qu'il est dur de s'embrasser  
De profil enlacés c'est tout simple de face la tête en biais  
Regarde-les on pourrait les imiter  
Puis j'ai sans doute voulu dire qu'on devait s'illimiter  
Malade comme l'hiver jamais cru un jour pouvoir passer  
En net de volonté métissée en avril  
Regarde-les on pourrait les imiter  
E----3(s)5-5--0--3--0--3(s)5-5--0--5(s)7--7--7--0---------------------------  
Em Am Em Am Em  
Et on partira sur un simple reflet qu'on épousera jusqu'a tout oublier  
Am Em Am Em  
On repartira chaque jour sans filet, on s'écoulera jusqu'a se perdre en pieds. 
Accords identifiés : Accord B Accord G Accord D Accord A Accord E Accord Em Accord Am


<- Revenir à la liste des tablature
Pascal Sandrez - 272ms
Sites préférés : abc tabs | partoch | easy-tabs | Deezer | audiofanzine
règles de confidentialité