Tableaux d'accords
<- Revenir à la liste des tablature

Nirvana - Come As You Are Unplugged

 
Nirvana (Nevermind & Unplugged in New York)

COME AS YOU ARE - tabbed by Kieren Hudson 


If you have any comments, complaints or suggestions about these tabs,
please e-mail me at kieren@mail.org

Tune down 1 whole step
 intro
e-------------------------------------------------------------------------------------------
b-------------------------------------------------------------------------------------------
g-------------------------------------------------------------------------------------------
d-------------------------------------------------------------------------------------------
a-------------0----0-------------2----------2---------0------0--------------2--------2------
e--0--0--1--2----2---2--2--1--0-----0--0------0--1--2-----2-----2--2--1--0-----0--0----0--1-

 verse
e-----------------------------------------------------
b-----------------------------------------------------
g-----------------------------------------------------  x9
d-----------------------------------------------------
a-----0----0-------------2-------2--------------------
e--2----2----2--2--1--0----0--0----0--1---------------

 then
e--------------------------------0--0--0--0-----------
b--------------------------------0--0--0--0-----------
g--------------------------------1--1--1--1-----------
d-----------------------------------------------------
a----0-----0-----------2------------------------------
e--2----2-----2--1--0------0--------------------------

 chorus
e--------0--------------------------------------------
b--------0---------------2-----2-----2-----2----------
g---------------------2--2--2--2--2--2--2--2--0-------  x3
d--4---------4--4-----2--2--2--2--2--2--2--2--0-------
a--4---------4--4--0--0-----0-----0-----0-----0-------
e--2---------2--2--0----------------------------------

e--------0--------------------------------------------
b--------0---------------2-----2----------------------
g---------------------2--2--2--2--2-------------------
d--4---------4--4-----2--2--2--2--2-------------------
a--4---------4--4--0--0-----0-----0-------------------
e--2---------2--2--0---------------------0--0--1--2---

 bridge
e---------------------0--0--0-0-0-0-------------------
b------------------0--3--3--3-3-3---------------------
g--4--4--4--4-4-4--0--2--2------2---------------------  x3
d--4--4--4--4-4-4--0--0--0------0---------------------
a--2--2--2--2-2-2--0----------------------------------
e-----------------------------------------------------

e---------------------0--0--0--0----------------------
b------------------0--3--3--3--3----------------------
g--4--4--4--4-4-4--0--2--2-----2----------------------
d--4--4--4--4-4-4--0--0--0-----0----------------------
a--2--2--2--2-2-2--0----------------------------------
e-----------------------------------------------------

 solo

b-------------------------------------------------------12)
g--2--2--6~~~--9--11\6--6~~~---9-11\6--6~~~--9--11--11--11--11~~--9--6
d-----------------------------------------------------
a-----------------------------------------------------
e-----------------------------------------------------

e-----------------------------------------------------
b-------------------------------------------------12)
g--6~~~--9--11\6--6~~~--9--11\6--6~~~--9--11--11--11---11~~--9----------x3--
d-----------------------------------------------------
a-----------------------------------------------------
e-----------------------------------------------------

 end
e--0--------------------------------------------------
b--0--------------------------------------------------
g--x--------------------------------------------------
d--4--------------------------------------------------
a--4--------------------------------------------------
e--2--------------------------------------------------

TABULATURE DEFINITION
)        =  bend
/        =  slide up
\        =  slide down
~~       =  vibrato
/\/\/\   =  vibrato
PM       =  palm mute
(x)/     =  finger scrape
Trem     =  play note as fast as you can
Accords identifiés :


<- Revenir à la liste des tablature
Pascal Sandrez - 345ms
Sites préférés : abc tabs | partoch | easy-tabs | Deezer | audiofanzine
règles de confidentialité