Tableaux d'accords
<- Revenir à la liste des tablature

Sublime - By The Rivers Of Babylon

doc  
Sublime - By The Rivers Of Babylon

Intro
    G                           G
e|---------------3-3---3-3-|---------------3-3---3-3-|
B|---------------3-3---3-3-|---------------3-3---3-3-|
G|---------------0-0---0-0-|---------------0-0---0-0-|
D|---------------0-0---0-0-|---------------0-0---0-0-|
A|------2-2-3----2-2---2-2-|------2-2-3----2-2---2-2-|
E|--3-3--------3-3-3-3-3-3-|--3-3--------3-3-3-3-3-3-|

    D                          G
e|---------------2-2---2-2-|--------------3-3---3-3--|
B|---------------3-3---3-3-|--------------3-3---3-3--|
G|---------------2-2---2-2-|--------------0-0---0-0--|
D|-------------0-0-0-0-0-0-|--------------0-0---0-0--|
A|--2-2-3-3-2--------------|--2^3-2^3-2---2-2---2-2--|
E|-------------------------|------------3-3-3-3-3-3--|

Couplet
                  G                     G
By the rivers of Babylon, where he sat down
              D                     G
And there he wept when he remembered Zion
                 G
Oh from wicked, carry us away from captivity  
    C               G
Required from us a song
 G                                      D     G
How can we singing out for song in a strange land?
            G            D   
So let the words of our mouth
           G               D
And the meditations of our hearts
      G               D
Be acceptable in thy sight
       G
O-verride

Bridge
Idem que l'intro

                  G                     G
By the rivers of Babylon, where he sat down
              D                     G
And there he wept when he remembered Zion
                 G
Oh from wicked, carry us away from captivity  
    C               G
Required from us a song
 G                                      D     G
How can we singing out for song in a strange land?
 G                                      D     G
How can we singing out for song in a strange land?

Accords identifiés : Accord G Accord B Accord D Accord A Accord E Accord C


<- Revenir à la liste des tablature
Pascal Sandrez - 215ms
Sites préférés : abc tabs | partoch | easy-tabs | Deezer | audiofanzine
règles de confidentialité