Tableaux d'accords
<- Revenir à la liste des tablature

Cocoon - Christmas Song

doc  
Cocoon - Christmas Song

Capo 4

Intro
     C    Dm     Am    G     F     E     Dm
e||--3--0--1-----0--------0--------0-0----------|
B||-----------3-----1--3-----1-----------3------|
G||-----------------------------2---------------|
D||---------------------------------------------|
A||---------------------------------------------|
E||---------------------------------------------|

     C    Dm     Am    G     F     E     Dm
e||--3--0--1-----0--------0--------0-0----------|
B||-----------3-----1--3-----1-----------3--1---|
G||-----------------------------2-------------2-|
D||---------------------------------------------|
A||---------------------------------------------|
E||---------------------------------------------|


Couplet
 C      Dm         Am       G
Santa Claus won't come tonight 
 F     E      Dm
He is never late
     C        Dm       Am       G
The reindeer may have been shot in
       F         E Dm
The skies Of the USA


Refrain
 Fm    C
For a long time
G            D7
I have been told lies
      Fm          C
Am I dumb? Am I blind?
      G          D7            Fm
I am feeling so fine,   oh so fine


Bridge
     C    Dm     Am    G     F     E     Dm
e||--3--0--1-----0--------0--------0-0----------|
B||-----------3-----1--3-----1-----------3--1---|
G||-----------------------------2-------------2-|
D||---------------------------------------------|
A||---------------------------------------------|
E||---------------------------------------------|


Couplet
 C         Dm       Am       G
Good news: I won't see your faces
 F         E        Dm
Round the cold turkey
 C         Dm       Am        G
Come back home and hug your neighbours
 F        E         Dm
You have saved a tree


Refrain
 Fm    C
For a long time
G            D7 
I have been told lies
      Fm          C
Am I dumb? Am I blind?
      G          D7            Fm
I am feeling so fine,   oh so fine


Bridge
     C    Dm     Am    G     F     E     Dm
e||--3--0--1-----0--------0--------0-0----------|
B||-----------3-----1--3-----1-----------3--1---|
G||-----------------------------2-------------2-|
D||---------------------------------------------|
A||---------------------------------------------|
E||---------------------------------------------|

     C    Dm     Am    G     F     E     Dm
e||--3--0--1-----0--------0--------0-0----------|
B||-----------3-----1--3-----1-----------3--1---|
G||-----------------------------2-------------2-|
D||---------------------------------------------|
A||---------------------------------------------|
E||---------------------------------------------|


Refrain
 Fm    C
For a long time
G            D7
I have been told lies
      Fm          C
Am I dumb? Am I blind?
      G          D7
I am feeling so fine,
      Fm          C
Am I dumb? Am I blind?
      G          D7...
I am feeling so fine
Accords identifiés : Accord C Accord Dm Accord Am Accord G Accord F Accord E Accord B Accord D Accord A Accord Fm Accord D7


<- Revenir à la liste des tablature
Pascal Sandrez - 307ms
Sites préférés : abc tabs | partoch | easy-tabs | Deezer | audiofanzine
règles de confidentialité