Tableaux d'accords
<- Revenir à la liste des tablature

Evanescence - My Immortal (Acoustic)

 
                           My Immortal Acoustic                               


                                                                     Evanescence
Acoustic



      A    INTRO                          C#m                              
      ^                                   ^                                
      Q    E     S E  E  S S S  S   S     Q    E  S E  E  S S S  S   S     
E||---0----0-----0-0--0--0-0-0-(0)-(0)-|--4----4--4-4--4--4-4-4-(4)-(4)--||
B||---2----2-----2-2--2--2-2-2-(2)-(2)-|--5----5--5-5--5--5-5-5-(5)-(5)--||
G||*--2----2-----2-2--2--2-2-2-(2)-(2)-|--6----6--6-6--6--6-6-6-(6)-(6)-*||
D||*--2----2-----2-2--2--2-2-2-(2)-(2)-|--6----6--6-6--6--6-6-6-(6)-(6)-*||
A||---0----0-----0-0--0--0-0-0-(0)-(0)-|--4----4--4-4--4--4-4-4-(4)-(4)--||
E||------------------------------------|---------------------------------||


  A    VERSE                          C#m                            
  ^                                   ^                              
  Q    E     S E  E  S S S  S   S     Q    E  S E  E  S S S  S   S   
--0----0-----0-0--0--0-0-0-(0)-(0)-|--4----4--4-4--4--4-4-4-(4)-(4)-|
--2----2-----2-2--2--2-2-2-(2)-(2)-|--5----5--5-5--5--5-5-5-(5)-(5)-|
--2----2-----2-2--2--2-2-2-(2)-(2)-|--6----6--6-6--6--6-6-6-(6)-(6)-|
--2----2-----2-2--2--2-2-2-(2)-(2)-|--6----6--6-6--6--6-6-6-(6)-(6)-|
--0----0-----0-0--0--0-0-0-(0)-(0)-|--4----4--4-4--4--4-4-4-(4)-(4)-|
-----------------------------------|--------------------------------|


  A                                C#m                            
  ^                                ^                              
  Q    E  S E  E  S S S  S   S     Q    E  S E  E  S S S  S   S   
--0----0--0-0--0--0-0-0-(0)-(0)-|--4----4--4-4--4--4-4-4-(4)-(4)-|
--2----2--2-2--2--2-2-2-(2)-(2)-|--5----5--5-5--5--5-5-5-(5)-(5)-|
--2----2--2-2--2--2-2-2-(2)-(2)-|--6----6--6-6--6--6-6-6-(6)-(6)-|
--2----2--2-2--2--2-2-2-(2)-(2)-|--6----6--6-6--6--6-6-6-(6)-(6)-|
--0----0--0-0--0--0-0-0-(0)-(0)-|--4----4--4-4--4--4-4-4-(4)-(4)-|
--------------------------------|--------------------------------|


  A                                C#m                            
  ^                                ^                              
  Q    E  S E  E  S S S  S   S     Q    E  S E  E  S S S  S   S   
--0----0--0-0--0--0-0-0-(0)-(0)-|--4----4--4-4--4--4-4-4-(4)-(4)-|
--2----2--2-2--2--2-2-2-(2)-(2)-|--5----5--5-5--5--5-5-5-(5)-(5)-|
--2----2--2-2--2--2-2-2-(2)-(2)-|--6----6--6-6--6--6-6-6-(6)-(6)-|
--2----2--2-2--2--2-2-2-(2)-(2)-|--6----6--6-6--6--6-6-6-(6)-(6)-|
--0----0--0-0--0--0-0-0-(0)-(0)-|--4----4--4-4--4--4-4-4-(4)-(4)-|
--------------------------------|--------------------------------|


  A                                C#m                            
  ^                                ^                              
  Q    E  S E  E  S S S  S   S     Q    E  S E  E  S S S  S   S   
--0----0--0-0--0--0-0-0-(0)-(0)-|--4----4--4-4--4--4-4-4-(4)-(4)-|
--2----2--2-2--2--2-2-2-(2)-(2)-|--5----5--5-5--5--5-5-5-(5)-(5)-|
--2----2--2-2--2--2-2-2-(2)-(2)-|--6----6--6-6--6--6-6-6-(6)-(6)-|
--2----2--2-2--2--2-2-2-(2)-(2)-|--6----6--6-6--6--6-6-6-(6)-(6)-|
--0----0--0-0--0--0-0-0-(0)-(0)-|--4----4--4-4--4--4-4-4-(4)-(4)-|
--------------------------------|--------------------------------|


  F#m       C#m PRE-CHORUS                F#m       C#m                 
  ^         ^                             ^         ^                   
  E.  S S S E.  E          S S S  S  S    E.  S S S E.  E  S S S  S  S  
--2---2-2-x-4---4----------4-4-4-(4)-x-|--2---2-2-x-4---4--4-4-4-(4)-x-|
--2---2-2-x-5---5----------5-5-5-(5)-x-|--2---2-2-x-5---5--5-5-5-(5)-x-|
--2---2-2-x-6---6----------6-6-6-(6)-x-|--2---2-2-x-6---6--6-6-6-(6)-x-|
--4---4-4-x-6---6----------6-6-6-(6)-x-|--4---4-4-x-6---6--6-6-6-(6)-x-|
--4---4-4-x-4---4----------4-4-4-(4)-x-|--4---4-4-x-4---4--4-4-4-(4)-x-|
--2---2-2-x----------------------------|--2---2-2-x--------------------|


  F#m       C#m                   E                            
  ^         ^                     ^                            
  E.  S S S E.  E  S S S  S  S    E.  S S S E  S E  S S S S S  
--2---2-2-x-4---4--4-4-4-(4)-x-|--0---0-0-0-0--0-0--0-0-0-0-0-|
--2---2-2-x-5---5--5-5-5-(5)-x-|--0---0-0-0-0--0-0--0-0-0-0-0-|
--2---2-2-x-6---6--6-6-6-(6)-x-|--1---1-1-1-1--1-1--1-1-1-1-1-|
--4---4-4-x-6---6--6-6-6-(6)-x-|--2---2-2-2-2--2-2--2-2-2-2-2-|
--4---4-4-x-4---4--4-4-4-(4)-x-|--2---2-2-2-2--2-2--2-2-2-2-2-|
--2---2-2-x--------------------|--0---0-0-0-0--0-0--0-0-0-0-0-|


  F#m       D   CHORUS                  E         C#m                   
  ^         ^                           ^         ^                     
  E.  S S S E.  E      S S S  S   S     E.  S S S E.  E  S S S  S   S   
--2---2-2-x-2---2------2-2-2-(2)-(2)-|--0---0-0-x-4---4--4-4-4-(4)-(4)-|
--2---2-2-x-3---3------3-3-3-(3)-(3)-|--0---0-0-x-5---5--5-5-5-(5)-(5)-|
--2---2-2-x-2---2------2-2-2-(2)-(2)-|--1---1-1-x-6---6--6-6-6-(6)-(6)-|
--4---4-4-x-0---0------0-0-0-(0)-(0)-|--2---2-2-x-6---6--6-6-6-(6)-(6)-|
--4---4-4-x--------------------------|--2---2-2-x-4---4--4-4-4-(4)-(4)-|
--2---2-2-x--------------------------|--0---0-0-x----------------------|


  F#m       D                       E         C#m                   
  ^         ^                       ^         ^                     
  E.  S S S E.  E  S S S  S   S     E.  S S S E.  E  S S S  S   S   
--2---2-2-x-2---2--2-2-2-(2)-(2)-|--0---0-0-x-4---4--4-4-4-(4)-(4)-|
--2---2-2-x-3---3--3-3-3-(3)-(3)-|--0---0-0-x-5---5--5-5-5-(5)-(5)-|
--2---2-2-x-2---2--2-2-2-(2)-(2)-|--1---1-1-x-6---6--6-6-6-(6)-(6)-|
--4---4-4-x-0---0--0-0-0-(0)-(0)-|--2---2-2-x-6---6--6-6-6-(6)-(6)-|
--4---4-4-x----------------------|--2---2-2-x-4---4--4-4-4-(4)-(4)-|
--2---2-2-x----------------------|--0---0-0-x----------------------|


  F#m       D                       E         C#m                   
  ^         ^                       ^         ^                     
  E.  S S S E.  E  S S S  S   S     E.  S S S E.  E  S S S  S   S   
--2---2-2-x-2---2--2-2-2-(2)-(2)-|--0---0-0-x-4---4--4-4-4-(4)-(4)-|
--2---2-2-x-3---3--3-3-3-(3)-(3)-|--0---0-0-x-5---5--5-5-5-(5)-(5)-|
--2---2-2-x-2---2--2-2-2-(2)-(2)-|--1---1-1-x-6---6--6-6-6-(6)-(6)-|
--4---4-4-x-0---0--0-0-0-(0)-(0)-|--2---2-2-x-6---6--6-6-6-(6)-(6)-|
--4---4-4-x----------------------|--2---2-2-x-4---4--4-4-4-(4)-(4)-|
--2---2-2-x----------------------|--0---0-0-x----------------------|


  F#m       D                       E                             
  ^         ^                       ^                             
  E.  S S S E.  E  S S S  S   S     E.  E  S E.  E  S  S   S  E   
--2---2-2-x-2---2--2-2-2-(2)-(2)-|--0---0--0-0---0--0--0--(0)-0--|
--2---2-2-x-3---3--3-3-3-(3)-(3)-|--0---0--0-0---0--0--0--(0)-0--|
--2---2-2-x-2---2--2-2-2-(2)-(2)-|--1---1--1-1---1--1--1--(1)-1--|
--4---4-4-x-0---0--0-0-0-(0)-(0)-|--2---2--2-2---2--2-(2)-(2)-2--|
--4---4-4-x----------------------|--2---2--2-2---2--2-(2)-(2)-2--|
--2---2-2-x----------------------|--0---0--0-0---0--0-(0)-(0)-0--|


                      A    VERSE                        
                      ^                                 
  W                   Q    E     S E  E  S S S  S   S   
--L----------------|--0----0-----0-0--0--0-0-0-(0)-(0)-|
--L----------------|--2----2-----2-2--2--2-2-2-(2)-(2)-|
--L----------------|--2----2-----2-2--2--2-2-2-(2)-(2)-|
--L----------------|--2----2-----2-2--2--2-2-2-(2)-(2)-|
--L----------------|--0----0-----0-0--0--0-0-0-(0)-(0)-|
--L----------------|-----------------------------------|


  C#m                              A                              
  ^                                ^                              
  Q    E  S E  E  S S S  S   S     Q    E  S E  E  S S S  S   S   
--4----4--4-4--4--4-4-4-(4)-(4)-|--0----0--0-0--0--0-0-0-(0)-(0)-|
--5----5--5-5--5--5-5-5-(5)-(5)-|--2----2--2-2--2--2-2-2-(2)-(2)-|
--6----6--6-6--6--6-6-6-(6)-(6)-|--2----2--2-2--2--2-2-2-(2)-(2)-|
--6----6--6-6--6--6-6-6-(6)-(6)-|--2----2--2-2--2--2-2-2-(2)-(2)-|
--4----4--4-4--4--4-4-4-(4)-(4)-|--0----0--0-0--0--0-0-0-(0)-(0)-|
--------------------------------|--------------------------------|


  C#m                              A                              
  ^                                ^                              
  Q    E  S E  E  S S S  S   S     Q    E  S E  E  S S S  S   S   
--4----4--4-4--4--4-4-4-(4)-(4)-|--0----0--0-0--0--0-0-0-(0)-(0)-|
--5----5--5-5--5--5-5-5-(5)-(5)-|--2----2--2-2--2--2-2-2-(2)-(2)-|
--6----6--6-6--6--6-6-6-(6)-(6)-|--2----2--2-2--2--2-2-2-(2)-(2)-|
--6----6--6-6--6--6-6-6-(6)-(6)-|--2----2--2-2--2--2-2-2-(2)-(2)-|
--4----4--4-4--4--4-4-4-(4)-(4)-|--0----0--0-0--0--0-0-0-(0)-(0)-|
--------------------------------|--------------------------------|


  C#m                              A                              
  ^                                ^                              
  Q    E  S E  E  S S S  S   S     Q    E  S E  E  S S S  S   S   
--4----4--4-4--4--4-4-4-(4)-(4)-|--0----0--0-0--0--0-0-0-(0)-(0)-|
--5----5--5-5--5--5-5-5-(5)-(5)-|--2----2--2-2--2--2-2-2-(2)-(2)-|
--6----6--6-6--6--6-6-6-(6)-(6)-|--2----2--2-2--2--2-2-2-(2)-(2)-|
--6----6--6-6--6--6-6-6-(6)-(6)-|--2----2--2-2--2--2-2-2-(2)-(2)-|
--4----4--4-4--4--4-4-4-(4)-(4)-|--0----0--0-0--0--0-0-0-(0)-(0)-|
--------------------------------|--------------------------------|


  C#m                              A                              
  ^                                ^                              
  Q    E  S E  E  S S S  S   S     Q    E  S E  E  S S S  S   S   
--4----4--4-4--4--4-4-4-(4)-(4)-|--0----0--0-0--0--0-0-0-(0)-(0)-|
--5----5--5-5--5--5-5-5-(5)-(5)-|--2----2--2-2--2--2-2-2-(2)-(2)-|
--6----6--6-6--6--6-6-6-(6)-(6)-|--2----2--2-2--2--2-2-2-(2)-(2)-|
--6----6--6-6--6--6-6-6-(6)-(6)-|--2----2--2-2--2--2-2-2-(2)-(2)-|
--4----4--4-4--4--4-4-4-(4)-(4)-|--0----0--0-0--0--0-0-0-(0)-(0)-|
--------------------------------|--------------------------------|


  C#m                              A                              
  ^                                ^                              
  Q    E  S E  E  S S S  S   S     Q    E  S E  E  S S S  S   S   
--4----4--4-4--4--4-4-4-(4)-(4)-|--0----0--0-0--0--0-0-0-(0)-(0)-|
--5----5--5-5--5--5-5-5-(5)-(5)-|--2----2--2-2--2--2-2-2-(2)-(2)-|
--6----6--6-6--6--6-6-6-(6)-(6)-|--2----2--2-2--2--2-2-2-(2)-(2)-|
--6----6--6-6--6--6-6-6-(6)-(6)-|--2----2--2-2--2--2-2-2-(2)-(2)-|
--4----4--4-4--4--4-4-4-(4)-(4)-|--0----0--0-0--0--0-0-0-(0)-(0)-|
--------------------------------|--------------------------------|


  C#m                              F#m       C#m PRE-CHORUS              
  ^                                ^         ^                           
  Q    E  S E  E  S S S  S   S     E.  S S S E.  E          S S S  S  S  
--4----4--4-4--4--4-4-4-(4)-(4)-|--2---2-2-x-4---4----------4-4-4-(4)-x-|
--5----5--5-5--5--5-5-5-(5)-(5)-|--2---2-2-x-5---5----------5-5-5-(5)-x-|
--6----6--6-6--6--6-6-6-(6)-(6)-|--2---2-2-x-6---6----------6-6-6-(6)-x-|
--6----6--6-6--6--6-6-6-(6)-(6)-|--4---4-4-x-6---6----------6-6-6-(6)-x-|
--4----4--4-4--4--4-4-4-(4)-(4)-|--4---4-4-x-4---4----------4-4-4-(4)-x-|
--------------------------------|--2---2-2-x----------------------------|


  F#m       C#m                   F#m       C#m                 
  ^         ^                     ^         ^                   
  E.  S S S E.  E  S S S  S  S    E.  S S S E.  E  S S S  S  S  
--2---2-2-x-4---4--4-4-4-(4)-x-|--2---2-2-x-4---4--4-4-4-(4)-x-|
--2---2-2-x-5---5--5-5-5-(5)-x-|--2---2-2-x-5---5--5-5-5-(5)-x-|
--2---2-2-x-6---6--6-6-6-(6)-x-|--2---2-2-x-6---6--6-6-6-(6)-x-|
--4---4-4-x-6---6--6-6-6-(6)-x-|--4---4-4-x-6---6--6-6-6-(6)-x-|
--4---4-4-x-4---4--4-4-4-(4)-x-|--4---4-4-x-4---4--4-4-4-(4)-x-|
--2---2-2-x--------------------|--2---2-2-x--------------------|


  E                              F#m       D   CHORUS                
  ^                              ^         ^                         
  E.  S S S E  S E  S S S S S    E.  S S S E.  E      S S S  S   S   
--0---0-0-0-0--0-0--0-0-0-0-0-|--2---2-2-x-2---2------2-2-2-(2)-(2)-|
--0---0-0-0-0--0-0--0-0-0-0-0-|--2---2-2-x-3---3------3-3-3-(3)-(3)-|
--1---1-1-1-1--1-1--1-1-1-1-1-|--2---2-2-x-2---2------2-2-2-(2)-(2)-|
--2---2-2-2-2--2-2--2-2-2-2-2-|--4---4-4-x-0---0------0-0-0-(0)-(0)-|
--2---2-2-2-2--2-2--2-2-2-2-2-|--4---4-4-x--------------------------|
--0---0-0-0-0--0-0--0-0-0-0-0-|--2---2-2-x--------------------------|


  E         C#m                     F#m       D                     
  ^         ^                       ^         ^                     
  E.  S S S E.  E  S S S  S   S     E.  S S S E.  E  S S S  S   S   
--0---0-0-x-4---4--4-4-4-(4)-(4)-|--2---2-2-x-2---2--2-2-2-(2)-(2)-|
--0---0-0-x-5---5--5-5-5-(5)-(5)-|--2---2-2-x-3---3--3-3-3-(3)-(3)-|
--1---1-1-x-6---6--6-6-6-(6)-(6)-|--2---2-2-x-2---2--2-2-2-(2)-(2)-|
--2---2-2-x-6---6--6-6-6-(6)-(6)-|--4---4-4-x-0---0--0-0-0-(0)-(0)-|
--2---2-2-x-4---4--4-4-4-(4)-(4)-|--4---4-4-x----------------------|
--0---0-0-x----------------------|--2---2-2-x----------------------|


  E         C#m                     F#m       D                     
  ^         ^                       ^         ^                     
  E.  S S S E.  E  S S S  S   S     E.  S S S E.  E  S S S  S   S   
--0---0-0-x-4---4--4-4-4-(4)-(4)-|--2---2-2-x-2---2--2-2-2-(2)-(2)-|
--0---0-0-x-5---5--5-5-5-(5)-(5)-|--2---2-2-x-3---3--3-3-3-(3)-(3)-|
--1---1-1-x-6---6--6-6-6-(6)-(6)-|--2---2-2-x-2---2--2-2-2-(2)-(2)-|
--2---2-2-x-6---6--6-6-6-(6)-(6)-|--4---4-4-x-0---0--0-0-0-(0)-(0)-|
--2---2-2-x-4---4--4-4-4-(4)-(4)-|--4---4-4-x----------------------|
--0---0-0-x----------------------|--2---2-2-x----------------------|


  E         C#m                     F#m       D                     
  ^         ^                       ^         ^                     
  E.  S S S E.  E  S S S  S   S     E.  S S S E.  E  S S S  S   S   
--0---0-0-x-4---4--4-4-4-(4)-(4)-|--2---2-2-x-2---2--2-2-2-(2)-(2)-|
--0---0-0-x-5---5--5-5-5-(5)-(5)-|--2---2-2-x-3---3--3-3-3-(3)-(3)-|
--1---1-1-x-6---6--6-6-6-(6)-(6)-|--2---2-2-x-2---2--2-2-2-(2)-(2)-|
--2---2-2-x-6---6--6-6-6-(6)-(6)-|--4---4-4-x-0---0--0-0-0-(0)-(0)-|
--2---2-2-x-4---4--4-4-4-(4)-(4)-|--4---4-4-x----------------------|
--0---0-0-x----------------------|--2---2-2-x----------------------|


  E                                                 
  ^                                                 
  E.  E  S E.  E  S  S   S  E     W                 
--0---0--0-0---0--0--0--(0)-0--|--L----------------|
--0---0--0-0---0--0--0--(0)-0--|--L----------------|
--1---1--1-1---1--1--1--(1)-1--|--L----------------|
--2---2--2-2---2--2-(2)-(2)-2--|--L----------------|
--2---2--2-2---2--2-(2)-(2)-2--|--L----------------|
--0---0--0-0---0--0-(0)-(0)-0--|--L----------------|


  D   BRIDGE                       F#m                        
  ^                ^               ^            ^             
  E.  E      S E.  S E  S S S S    E.  E  S E.  S E  S S S S  
--2---2------2-2---2-2--2-2-2-2-|--2---2--2-2---2-2--2-2-2-2-|
--3---3------3-3---3-3--3-3-3-3-|--2---2--2-2---2-2--2-2-2-2-|
--2---2------2-2---2-2--2-2-2-2-|--2---2--2-2---2-2--2-2-2-2-|
--0---0------0-0---0-0--0-0-0-0-|--4---4--4-4---4-4--4-4-4-4-|
--------------------------------|--4---4--4-4---4-4--4-4-4-4-|
--------------------------------|--2---2--2-2---2-2--2-2-2-2-|


  E                            D                          
  ^            ^               ^            ^             
  E.  E  S E.  S E  S S S S    E.  E  S E.  S E  S S S S  
--0---0--0-0---0-0--0-0-0-0-|--2---2--2-2---2-2--2-2-2-2-|
--0---0--0-0---0-0--0-0-0-0-|--3---3--3-3---3-3--3-3-3-3-|
--1---1--1-1---1-1--1-1-1-1-|--2---2--2-2---2-2--2-2-2-2-|
--2---2--2-2---2-2--2-2-2-2-|--0---0--0-0---0-0--0-0-0-0-|
--2---2--2-2---2-2--2-2-2-2-|----------------------------|
--0---0--0-0---0-0--0-0-0-0-|----------------------------|


  F#m                          C#m                        
  ^            ^               ^            ^             
  E.  E  S E.  S E  S S S S    E.  E  S E.  S E  S S S S  
--2---2--2-2---2-2--2-2-2-2-|--4---4--4-4---4-4--4-4-4-4-|
--2---2--2-2---2-2--2-2-2-2-|--5---5--5-5---5-5--5-5-5-5-|
--2---2--2-2---2-2--2-2-2-2-|--6---6--6-6---6-6--6-6-6-6-|
--4---4--4-4---4-4--4-4-4-4-|--6---6--6-6---6-6--6-6-6-6-|
--4---4--4-4---4-4--4-4-4-4-|--4---4--4-4---4-4--4-4-4-4-|
--2---2--2-2---2-2--2-2-2-2-|----------------------------|


  D                            E                          
  ^            ^               ^            ^             
  E.  E  S E.  S E  S S S S    E.  E  S E.  S E  S S S S  
--2---2--2-2---2-2--2-2-2-2-|--0---0--0-0---0-0--0-0-0-0-|
--3---3--3-3---3-3--3-3-3-3-|--0---0--0-0---0-0--0-0-0-0-|
--2---2--2-2---2-2--2-2-2-2-|--1---1--1-1---1-1--1-1-1-1-|
--0---0--0-0---0-0--0-0-0-0-|--2---2--2-2---2-2--2-2-2-2-|
----------------------------|--2---2--2-2---2-2--2-2-2-2-|
----------------------------|--0---0--0-0---0-0--0-0-0-0-|


  F#m       D   SOLO             E         C#m              
  ^         ^                    ^         ^                
  E.  S S S E.  E    S E  S S    E.  S S S E.  S E  E  S S  
--2---2-2-x-2---2----2-2--2-x-|--0---0-0-x-4---4-4--4--4-x-|
--2---2-2-x-3---3----3-3--3-x-|--0---0-0-x-5---5-5--5--5-x-|
--2---2-2-x-2---2----2-2--2-x-|--1---1-1-x-6---6-6--6--6-x-|
--4---4-4-x-0---0----0-0--0-x-|--2---2-2-x-6---6-6--6--6-x-|
--4---4-4-x-------------------|--2---2-2-x-4---4-4--4--4-x-|
--2---2-2-x-------------------|--0---0-0-x-----------------|


  F#m       D                  E           C#m                    
  ^         ^                  ^           ^             ^        
  E.  S S S E.  E  S E  S S    S S S S S S S   S S S S S S S S S  
--2---2-2-x-2---2--2-2--2-x-|--0-0-0-0-x-x-4---4-4-4-x-x-4-4-4-4-|
--2---2-2-x-3---3--3-3--3-x-|--0-0-0-0-x-x-5---5-5-5-x-x-5-5-5-5-|
--2---2-2-x-2---2--2-2--2-x-|--1-1-1-1-x-x-6---6-6-6-x-x-6-6-6-6-|
--4---4-4-x-0---0--0-0--0-x-|--2-2-2-2-x-x-6---6-6-6-x-x-6-6-6-6-|
--4---4-4-x-----------------|--2-2-2-2-x-x-4---4-4-4-x-x-4-4-4-4-|
--2---2-2-x-----------------|--0-0-0-0-x-------------------------|


  F#m       D   CHORUS                  E         C#m                   
  ^         ^                           ^         ^                     
  E.  S S S E.  E      S S S  S   S     E.  S S S E.  E  S S S  S   S   
--2---2-2-x-2---2------2-2-2-(2)-(2)-|--0---0-0-x-4---4--4-4-4-(4)-(4)-|
--2---2-2-x-3---3------3-3-3-(3)-(3)-|--0---0-0-x-5---5--5-5-5-(5)-(5)-|
--2---2-2-x-2---2------2-2-2-(2)-(2)-|--1---1-1-x-6---6--6-6-6-(6)-(6)-|
--4---4-4-x-0---0------0-0-0-(0)-(0)-|--2---2-2-x-6---6--6-6-6-(6)-(6)-|
--4---4-4-x--------------------------|--2---2-2-x-4---4--4-4-4-(4)-(4)-|
--2---2-2-x--------------------------|--0---0-0-x----------------------|


  F#m       D                       E         C#m                   
  ^         ^                       ^         ^                     
  E.  S S S E.  E  S S S  S   S     E.  S S S E.  E  S S S  S   S   
--2---2-2-x-2---2--2-2-2-(2)-(2)-|--0---0-0-x-4---4--4-4-4-(4)-(4)-|
--2---2-2-x-3---3--3-3-3-(3)-(3)-|--0---0-0-x-5---5--5-5-5-(5)-(5)-|
--2---2-2-x-2---2--2-2-2-(2)-(2)-|--1---1-1-x-6---6--6-6-6-(6)-(6)-|
--4---4-4-x-0---0--0-0-0-(0)-(0)-|--2---2-2-x-6---6--6-6-6-(6)-(6)-|
--4---4-4-x----------------------|--2---2-2-x-4---4--4-4-4-(4)-(4)-|
--2---2-2-x----------------------|--0---0-0-x----------------------|


  F#m       D                       E         C#m                   
  ^         ^                       ^         ^                     
  E.  S S S E.  E  S S S  S   S     E.  S S S E.  E  S S S  S   S   
--2---2-2-x-2---2--2-2-2-(2)-(2)-|--0---0-0-x-4---4--4-4-4-(4)-(4)-|
--2---2-2-x-3---3--3-3-3-(3)-(3)-|--0---0-0-x-5---5--5-5-5-(5)-(5)-|
--2---2-2-x-2---2--2-2-2-(2)-(2)-|--1---1-1-x-6---6--6-6-6-(6)-(6)-|
--4---4-4-x-0---0--0-0-0-(0)-(0)-|--2---2-2-x-6---6--6-6-6-(6)-(6)-|
--4---4-4-x----------------------|--2---2-2-x-4---4--4-4-4-(4)-(4)-|
--2---2-2-x----------------------|--0---0-0-x----------------------|


  F#m       D                       E                             
  ^         ^                       ^                             
  E.  S S S E.  E  S S S  S   S     E.  E  S E.  E  S  S   S  E   
--2---2-2-x-2---2--2-2-2-(2)-(2)-|--0---0--0-0---0--0--0--(0)-0--|
--2---2-2-x-3---3--3-3-3-(3)-(3)-|--0---0--0-0---0--0--0--(0)-0--|
--2---2-2-x-2---2--2-2-2-(2)-(2)-|--1---1--1-1---1--1--1--(1)-1--|
--4---4-4-x-0---0--0-0-0-(0)-(0)-|--2---2--2-2---2--2-(2)-(2)-2--|
--4---4-4-x----------------------|--2---2--2-2---2--2-(2)-(2)-2--|
--2---2-2-x----------------------|--0---0--0-0---0--0-(0)-(0)-0--|


                      A    OUTRO                        
                      ^                                 
  W                   Q    E     S E  E  S S S  S   S   
--L----------------|--0----0-----0-0--0--0-0-0-(0)-(0)-|
--L----------------|--2----2-----2-2--2--2-2-2-(2)-(2)-|
--L----------------|--2----2-----2-2--2--2-2-2-(2)-(2)-|
--L----------------|--2----2-----2-2--2--2-2-2-(2)-(2)-|
--L----------------|--0----0-----0-0--0--0-0-0-(0)-(0)-|
--L----------------|-----------------------------------|


  C#m                              A                              
  ^                                ^                              
  Q    E  S E  E  S S S  S   S     Q    E  S E  E  S S S  S   S   
--4----4--4-4--4--4-4-4-(4)-(4)-|--0----0--0-0--0--0-0-0-(0)-(0)-|
--5----5--5-5--5--5-5-5-(5)-(5)-|--2----2--2-2--2--2-2-2-(2)-(2)-|
--6----6--6-6--6--6-6-6-(6)-(6)-|--2----2--2-2--2--2-2-2-(2)-(2)-|
--6----6--6-6--6--6-6-6-(6)-(6)-|--2----2--2-2--2--2-2-2-(2)-(2)-|
--4----4--4-4--4--4-4-4-(4)-(4)-|--0----0--0-0--0--0-0-0-(0)-(0)-|
--------------------------------|--------------------------------|


  C#m                              A                              
  ^                                ^                              
  Q    E  S E  E  S S S  S   S     Q    E  S E  E  S S S  S   S   
--4----4--4-4--4--4-4-4-(4)-(4)-|--0----0--0-0--0--0-0-0-(0)-(0)-|
--5----5--5-5--5--5-5-5-(5)-(5)-|--2----2--2-2--2--2-2-2-(2)-(2)-|
--6----6--6-6--6--6-6-6-(6)-(6)-|--2----2--2-2--2--2-2-2-(2)-(2)-|
--6----6--6-6--6--6-6-6-(6)-(6)-|--2----2--2-2--2--2-2-2-(2)-(2)-|
--4----4--4-4--4--4-4-4-(4)-(4)-|--0----0--0-0--0--0-0-0-(0)-(0)-|
--------------------------------|--------------------------------|


  C#m                              A                              
  ^                                ^                              
  Q    E  S E  E  S S S  S   S     Q    E  S E  E  S S S  S   S   
--4----4--4-4--4--4-4-4-(4)-(4)-|--0----0--0-0--0--0-0-0-(0)-(0)-|
--5----5--5-5--5--5-5-5-(5)-(5)-|--2----2--2-2--2--2-2-2-(2)-(2)-|
--6----6--6-6--6--6-6-6-(6)-(6)-|--2----2--2-2--2--2-2-2-(2)-(2)-|
--6----6--6-6--6--6-6-6-(6)-(6)-|--2----2--2-2--2--2-2-2-(2)-(2)-|
--4----4--4-4--4--4-4-4-(4)-(4)-|--0----0--0-0--0--0-0-0-(0)-(0)-|
--------------------------------|--------------------------------|


  C#m                       
  ^                         
  Q    E  S E  E  E  E  S   
--4----4--4-4--4--4--4--L-||
--5----5--5-5--5--5--5--L-||
--6----6--6-6--6--6--6--L-||
--6----6--6-6--6--6--6--L-||
--4----4--4-4--4--4--4--L-||
--------------------------||



voila voila bonne gratte :-)




Accords identifiés dans ce document : 
A : 002220 Basse :  (Db E  A) Type : major triad
D : XX0775 Basse :  (D  Gb A) Type : major triad
E : X76450 Basse :  (E  Ab B) Type : major triad
Accords identifiés : Accord A Accord C#m Accord E Accord B Accord G Accord D Accord F#m Accord Db Accord Gb Accord Ab


<- Revenir à la liste des tablature
Pascal Sandrez - 89ms
Sites préférés : abc tabs | partoch | easy-tabs | Deezer | audiofanzine
règles de confidentialité